Gitara.org

Szkoła na bas – Ćwiczenia

Po pierwsze musicie zapamiętać, że ćwiczenia zaczynamy od rozgrzewki. Ma ona być na tyle długa żeby stawy i mięśnie się rozgrzały, rozruszały. W tym celu gramy sobie wolne tempa, tak długo aż poczujemy że dłoń jest gotowa na większe obciążenie. Zazwyczaj trwa to 10-20 minut.

szkoła na bas

Szkoła na bas (CD+książka)

Szkoła na bas – Rozgrzewka

Jak już próbowaliście trochę ćwiczyć, to zapewne słyszeliście o „schodkach”. Jeżeli nie to macie okazje o nich usłyszeć:P. Jest to bardzo prosta, szalenie nudna i zarazem cholernie efektywna metoda początkowych ćwiczeń i/lub rozgrzewki. W związku z tym zachęcam do praktykowania tego ćwiczenia (najlepiej z metronomem).

Oprócz schodków zawsze fajnie pograć nieco znanych kawałków – a konkretnie linii basowych. Możemy zawsze grać je sobie do puszczonego oryginału – jest to namiastka ćwiczenia z kapelą (tak marna jak gumowa lalka jest namiastką prawdziwej kobiety, ale zawsze :P)

Zobacz równiez forum: Gitara basowa oraz Szkoła na bas

Ja postanowiłem dać parę przykładów piosenek łatwych, a zarazem pomocnych w nauce gry na basie:

Nirvana – Come as you are
Nirvana – Smells like teen spirit
Mad Season – Wake up
Iron Maiden – The Trooper (do ćwiczenia grania trzema palcami prawej ręki)
Pearl jam – Reaview Mirror

To powinno starczyć na początek. Teraz jeszcze jedno pytanie. Jak tego się uczyć? Po pewnym czasie dojdziecie do wprawy i będziecie grali ze słuchu, ale na razie potrzebna jest tabulatura. Istnieją dwa rodzaje tabów. Jeden jest formatem obsługiwanym przez bardzo pomocny wszystkim gitarmanom i bassmanom „Guitar Pro” (gtp, gt3, gt4 ). Następny jest to tabulatura pisana. Spotykamy ją w przeróżnych formatach od doc przez .tab i .btab do html.

O ile gtp gra i odtwarza nam tabulaturę samo!!! (dlatego jest taki przydatny), to „pisanki” są już trudniejsze. Trzeba zwrócić uwagę na wszelkie dopiski jakie są umieszczone na tabie np. w jakim jest tempie grana dana tabulatura czy jakiego stroju używamy do jej grania. W tabulaturze mamy odwrócone struny, czyli struna E (najgrubsza) jest na dole, a cyfry które widzimy oznaczają próg, jaki w danym momencie należy nacisnąć. Poniżej zamieszczam parę linków do tabulatur.

Taby – schodki pionowe (zakładam że macie 4 strunową gitarę, jak macie ich więcej to poprostu na następnych strunach gracie to samo)

Szkoła na bas – Ćwiczenia

Cyfry (jak już mówiłem) oznaczają numer progu . 0 (zero) oznacza że gramy pustą strunę. Każdy kolejny dźwięk gramy następnym palcem lewej ręki. (Najlepiej jak będziecie grali jeden dżwiek, i następny bez odrywania poprzedniego palca. Identycznie dalej) dokładne objaśnienie czytania tabulatur niedługo znajdzie się na basoofce.

G |---------------------|-------------------|--------------------|--0---1---2---3---4---|
D |---------------------|-------------------|--0---1---2---3---4-|----------------------|
A |---------------------|-0---1---2---3---4-|--------------------|----------------------|
E |---0---1---2---3---4-|-------------------|--------------------|----------------------|


G |---0---1---2---3---4-|--------------------|---------------------|--------------------|
D |---------------------|--0---1---2---3---4-|---------------------|--------------------|
A |---------------------|--------------------|---0---1---2---3---4-|--------------------|
E |---------------------|--------------------|---------------------|-0---1---2---3---4--|

– schodki poziome (gra się je w zależności od waszej wytrzymałości można do 5 progu tak jak w tym ćwiczeniu, ale jak czujecie sie na siłach możecie nawet do 20)

G |---------------|---------------|---------------|---------------|---------------|---------------|
D |---------------|---------------|---------------|---------------|---------------|---------------|
A |---------------|---------------|---------------|---------------|---------------|---------------|
E |-0--1--2--3--4-|-1--2--3--4--5-|-2--3--4--5--6-|-3--4--5--6--7-|-4--5--6--7--8-|-5--6--7--8--9-|
(I wracamy!!!)
G |---------------|---------------|---------------|---------------|---------------|---------------|
D |---------------|---------------|---------------|---------------|---------------|---------------|
A |---------------|---------------|---------------|---------------|---------------|---------------|
E |-9--8--7--6--5-|-8--7--6--5--4-|-7--6--5--4--3-|-6--5--4--3--2-|-5--4--3--2--1-|-4--3--2--1--0-|

Ćwiczenie rozpisałem tylko na strunie E, ale nie oznacza to że wykonujemy je tylko na tej jednej strunie. Jak skończycie na E to odpocznijcie 5 min i bierzcie się za następną. Powodzenia

– Przykładowa tabulatura w wersji pisanej. Jest to tab zwrotki Smells like teen spirit (Nirvany)

......F............B........Gis.............Cis
G ---------------------------------------------------|
D ---------------------------------------------------|
A -----------------1-1----------------------4--4-----|
E --1--1--------------------4--4---------------------|

Linki Na początek Guitar pro (wersia demo) – http://www.guitar-pro.com

Artykuł udostępniony przez serwis basoofka.net

Comments are closed.

Przeczytaj poprzedni wpis:
Pięć patentów Pentatoniki w skali A moll (Zakk Wylde)

Pięć patentów pentatoniki w skali A moll. Metrum : 4/4. Kostkowanie: obustronne. Autor: Zakk Wylde Przykład 1: / |----------------------|-----3-5-(5)~~~---5-3-|-----------------|----------------|| |----------------------|-3-5------------------|-5-3-------------|----------------||...

Zamknij