Gitara.org

Styl gry na gitarze. Jak grać rock i metal cz3

W tym artykule przedstawiam to co tygrysy lubią najbardziej. Szybkie i rytmiczne zagrywki. Myślę, że czytający ma już opanowane podstawy i bez problemu zagra zagrywki przedstawione w poprzednich artykułach.

A więc zaczynamy. Na początek przedstawiam tutaj znamy utwór Wasted Years, ale gram go trochę w nieco inny sposób. Ważna rzecz to trzymać rytm i wygrywać poprawnie dźwięki.

E|12-0-0-7-0-0-8-0-0-5-0-0-7-0-3-0-5-0-0-2-0-0-3-0-0-5-0-0-2-0-3-|
potem
H|12-0-0-7-0-0-8-0-0-5-0-0-7-0-3-0-5-0-0-2-0-0-3-0-0-5-0-0-2-0-3-|
potem
G|12-0-0-7-0-0-8-0-0-5-0-0-7-0-3-0-5-0-0-2-0-0-3-0-0-5-0-0-2-0-3-|
potem
D|12-0-0-7-0-0-8-0-0-5-0-0-7-0-3-0-5-0-0-2-0-0-3-0-0-5-0-0-2-0-3-|
potem
A|12-0-0-7-0-0-8-0-0-5-0-0-7-0-3-0-5-0-0-2-0-0-3-0-0-5-0-0-2-0-3-|
potem
E|12-0-0-7-0-0-8-0-0-5-0-0-7-0-3-0-5-0-0-2-0-0-3-0-0-5-0-0-2-0-3-|

Gra się to na wszystkich strunach od najcieńszej e do najgrubszej E. Jest to bardzo ciekawa zagrywka, i polecam ją do zagrania kiedyś w zespole sam na sam z perkusją.

Improwizacja, solówki, gra akordowa i rockowe granie! Zobacz jak robią to inni!
Promocyjny komplet do nauki gry na gitarze. Improwizacja w 3 częściach, skale modalne, szkoła gitarowa Błasia i tajniki gry akordowej Lesickiego.

Inną zagrywkę prezentuję tutaj. Jest to sjazd prezentujący się bardzo efektywnie, jednak jest nieco trudniejszy od poprzedniego kawałka. Co bym polecił początkującym ? Nauczyć się i grać go każdego dnia, niekoniecznie w szybkim tempie.

3 4  3 1 4  3 2 1 2 1 2 1 1 4 3 2 1 2 1 4 3 1 4 3 1
E|-9-10-9-7--------------------------------------------|
H|----------10-9-7-6-7-6-------------------------------|
G|-----------------------7-6-4-------------------------|
D|-----------------------------7-6-4-3-4-3-------------|
A|-----------------------------------------5-4-2-------|
E|-----------------------------------------------5-4-2-|

Na koniec przedstawiam podobny do pierwszego kawałka motyw. Ale się nieco różni.

E|0-0-5-0-0-7-0-0-8-0-0-7-0-0-5-0-0-10-0-0-8-0-0-7-0-0-8-0-0-7-0-0-5-0
potem
H|5-0-0-7-0-0-8-0-0-7-0-0-5-0-0-10-0-0-8-0-0-7-0-0-8-0-0-7-0-0-5-0
potem
G|0-5-0-0-7-0-0-9-0-0-7-0-0-5-0
potem
D|0-5-0-0-7-0-0-9-0-0-7-0-0-5-0

Aby dojść do perfekcji w tych kawałkach zalecam, aby od początku grać w rytmie i wygrywać dokładnie wszystkie dźwięki. Wiem, że na początku może to być bardzo trudne, ale po jakimś czasie pojawią się postępy. Najlepiej jest to sobie grać raczej powoli, a z biegiem czasu coraz szybciej, na ile szybkość palców pozwala. To tyle. Jeżeli masz jakieś pytania, uwagi co do artykułu piszcie do mnie.

Autor: Błażej Parma

Artykuł udostępniony dzięki uprzejmości Błażeja Parma / http://vibrato.xo.pl

Comments are closed.

Przeczytaj poprzedni wpis:
Kurs gry na gitarze. Metal na dwie gitary

Odkąd pamiętam, zawsze standardowym problemem każdego garażowego zespołu było rozpisanie partii na dwie gitary. Bo nawet jeśli jeden z gitarzystów...

Zamknij