Gitara.org

Skale modalne

Podstawowe pozycje skal modalnych z prymami na strunie E. Tak jak w przykładach teoretycznych będą to skale modalne należące do C-dur (przykłady dokładnie w dwóch oktawach). To są wszystko pierwsze pozycje każdej skali modalnej (zakłada się, że pierwsza pozycja to ta, która ma pryme na strunie E). Jednocześnie są to wszystkie pozycje skali C-dur (kolejne pozycje skali, to te, które mają inne dźwięki niż pryma na strunie E). Logicznym, więc jest, że przykładowo pozycja pierwsza skali E-frygijskiej jest trzecią pozycją skali C-dur (ponieważ, prymą E-frygijskiej jest dźwięk E, a dla skali C-dur E jest trzecim stopniem):

Skala C-jońska
E--------------------------------7-8-----------
B---------------------------8-10---------------
G--------------------7-9-10--------------------
D-------------7-9-10---------------------------
A------7-8-10----------------------------------
E-8-10-----------------------------------------

Skala D-dorycka
E-----------------------------------------10-----
B--------------------------------10-12-13--------
G------------------------9-10-12-----------------
D----------------9-10-12-------------------------
A----------10-12---------------------------------
E-10-12-13---------------------------------------

Skala E-frygijska
E-------------------------------------------12------------------------------0-
B----------------------------------12-13-15---------------------------0-1-3---
G----------------------------12-14--------------------------------0-2---------
D-------------------12-14-15--------------------------------0-2-3-------------
A----------12-14-15-----------------------------------0-2-3-------------------
E-12-13-15--------------------------------------0-1-3-------------------------

Skala F-lidyjska
E----------------------------------------12-13----------------------------0-1-
B-------------------------------12-13-15----------------------------0-1-3-----
G-------------------------12-14---------------------------------0-2-----------
D----------------12-14-15---------------------------------0-2-3---------------
A-------12-14-15------------------------------------0-2-3---------------------
E-13-15-----------------------------------------1-3---------------------------

Skala G-miksolidyjska
E-----------------------------3-------------
B-----------------------3-5-6---------------
G-----------------2-4-5---------------------
D-----------2-3-5---------------------------
A-----2-3-5---------------------------------
E-3-5---------------------------------------

Skala A-eolska
E-----------------------------5------------
B-----------------------5-6-8--------------
G-----------------4-5-7--------------------
D-------------5-7--------------------------
A-------5-7-8------------------------------
E-5-7-8------------------------------------

Skala B-lokrycka
E----------------------------------7-------
B-----------------------------8-10---------
G----------------------7-9-10--------------
D---------------7-9-10---------------------
A--------7-8-10----------------------------
E-7-8-10-----------------------------------

Skale pentatoniczne

Pięć pozycji pentatonicznych =) (w C-dur)
Poniżej przedstawiam całe pozycje (ponad dwie oktawy)

Pozycja I (Pentatonika C-dur)
E--------------------------8-10-----------------
B---------------------8-10----------------------
G-----------------7-9---------------------------
D------------7-10-------------------------------
A-------7-10------------------------------------
E--8-10-----------------------------------------

Pozycja II
E-------------------------------10-12------------
B-------------------------10-13------------------
G--------------------9-12-----------------------
D--------------10-12-----------------------------
A--------10-12-----------------------------------
E--10-12-----------------------------------------

Pozycja III
E---------------------------------12-15---------------------0-3--
B--------------------------13-15-----------------------1-3-------
G--------------------12-14-------------------------0-2-----------
D--------------12-14---------------------------0-2---------------
A--------12-15-----------------------------0-3-------------------
E--12-15-------------------------------0-3-----------------------

Pozycja IV
E----------------------3-5---------------------
B------------------3-5-------------------------
G--------------2-5-----------------------------
D----------2-5---------------------------------
A------3-5-------------------------------------
E--3-5-----------------------------------------

Pozycja V (Pentatonika A-moll)
E----------------------5-8---------------------
B------------------5-8-------------------------
G--------------5-7-----------------------------
D----------5-7---------------------------------
A------5-7-------------------------------------
E--5-8-----------------------------------------

Autor: Marek “WilQ” K. (http://chomikuj.pl/highwolf)

Comments are closed.

Przeczytaj poprzedni wpis:
Akordy barowe (chwyty barowe)

Na początek drugiej części praktycznej pewnie coś banalnego dla większości gitarzystów, ale rozpisane być musi - akordy barowe. Akord barowy...

Zamknij