Gitara.org

Skala molowa

Ogrywając skalę molową zaczynając od prymy na strunie E6 napotykamy na bardzo ciekawą „przeszkodę”. Przyjrzyjmy się tabulaturze, a w szczególności opalcowaniu:

1-wskazujący, 2-środkowy, 3-serdeczny, 4-mały

Skala A-moll i intuicyjne opalcowanie

1 3 4 1 3 4 1 3 1 2 4 1 2 4 1
E-----------------------------5-------
B-----------------------5-7-8---------
G-----------------4-5-8---------------
D-------------5-7---------------------
A-------5-7-8-------------------------
E-5-7-8-------------------------------

A teraz z nieznacznie zmienionym opalcowaniem:

1 3 4 1 3 4 1 4 1 2 4 1 2 4 1
E-----------------------------5-------
B-----------------------5-7-8---------
G-----------------4-5-8---------------
D-------------5-7---------------------
A-------5-7-8-------------------------
E-5-7-8-------------------------------

Co się zmieniło? dźwięk na strunie D i progu 7 gramy palcem MAŁYM, a nie serdecznym. Co nam to daje? mniejsze napięcie w dłoni i przygotowanie jej do rozciągnięcia się na 4 próg na niższej strunie. Proszę pograjcie parę razy pierwsze opalcowanie, a potem spróbujcie drugiego i wczujcie się w napięcia jakie zachodzą w lewej ręce… Ta technika gry na gitarze się przyda i warto o niej pamiętać, ponieważ tego typu przejścia pojawiają się w innych skalach i różnych zagrywkach…
Pozdrawiam! Autor: Marek “WilQ” K. (http://chomikuj.pl/highwolf)

Comments are closed.

Przeczytaj poprzedni wpis:
Akord rozbity na kawałki czyli ARPEGGIO

Arpeggio to nic innego jak dźwięki akordu grane pojedynczo. Jest to świetne narzędzie do bezpiecznego poruszania się po progresjach. Arpeggio...

Zamknij