Gitara | Nauka gry na gitarze

Styl gry na gitarze. Jak grać rock i metal cz1

Kiedy opanowałeś już podstawy i masz ochotę grać coś lepszego powinieneś przejść do kolejnego etapu gry na gitarze. Wiele gitarzystów właśnie pyta się mnie od jakich utworów zaczynać. Mam tu jednak na myśli wyłącznie utwory rockowe i metalowe, gdyż taką muzykę gram, i tylko w tej dziedzinie mogę się wypowiedzieć.

Jeżeli chodzi o mnie to w momencie kiedy objąłem podstawy chwyciłem się zaraz Metallica. Oczywiście początki były bardzo trudne, ale zbiegiem czasu udawało mi się wygrywać coraz to lepiej riffy Hetfielda oraz wolniejsze solówki Hammetta. I byłem z siebie bardzo zadowolony, mimo, że robiłem dużo błędów. Więc co bym polecił młodym gitarzystom, oczywiście na początek radziłbym się nauczyć na przykład jakieś proste motywy, takie jakie grają chłopcy z Metallica na koncertach, podczas przerw pomiędzy utworami. Na przykład pierwszy to Smoke On The Water a drugi to Bass Solo (Mexico City). Są to bardzo proste kawałki a przy tym ukazujące bardzo metalowy klimat.

Metallica - Smoke On The Water
D-----3--5-----3--6\5-----3--5--3---
A--5--1--3--5--1--4\3--5--1--3--1--5
E--3--------3----------3-----------3

Metallica - Bass Solo (Mexico City)
G:-----------------------------------------------|
D:*--------------------2------------------------*|
A:*--4-----------2--4-----4-----4--------2---2--*|
E:------X--2--4--------------------0--4-----X----|

Innym przykładem może być utwór zatytułowany Enter Sandman, którego intro uczyłem się na początku mojej gry. Jest one naprawdę interesujące i z odpowiednim przesterem daje duże możliwości.

Metallica - Enter Sandman
D--------5-------------5----
A-----7--------7----7-------
E--0-------6-5---0-------6-5

Są to oczywiście dwa przykłady spośród tysięcy motywów, jakie możemy sobie zagrać. Wybór jest dowolny. Ale zwracałem już uwagę, aby dużo grać, więc najlepiej uczyć się takich zagrywek jak nawięcej. Wówczas gram urozmaicone rzeczy, zaznajamiając się powoli z grydem gitary. Według mnie nie trzeba uczyć się zaraz całego utworu, wystarczy na początek nauczyć się wstępu, jakiegoś intra, potem jakiegoś riffu. Kiedy już będziemy mieli odpowiednią szybkość w palcach możemy powrócić te tegoż utworu i nauczyć się solówki. Tak było ze mną na początku. Najpierw uczyłem się inter, a po kilku miesiącach a nawet po roku uczyłem się solówki. Przedstawiam kolejne kawałki, które warto nauczyć się na początek:

Metallica - Wherever I May Roam
D--9-----------9--5-5-7----9------------------------------------9--5-5-7--
A--7--7-7-8-7~~7--------8~~7--7-7-8-7~~7-8-9-10--3-5-6-7-7-8-7~~7--------8
E--0-----------0-----------0-----------5-6-7-8------------------0---------
 pm.           .           .                     .......

Metallica - Jump In The Fire
E----------------------------------      ----------------------
B----------------------------------      ----------------------
G----------------------------------      ------------------5--3
D----------3----------------3------      ---------3--------5--3
A------3-5---5-3--------3-5---5-3--      -----3-5---5-4-3--3--1
E--3-6-----------6--3-6-----------6      -3-6------------------
pm.................................       ...............

Metallica - Seek And Destroy
E---------------------------------       ----------------
B---------------------------------       ----------------
G------7H8-7-------------------5--        -9-7---7-------
D--------------7H8-7-------5-----7       -----9---9-8-7--
A--0-0-------0-------0-8-7---7----       ---------------9
E---------------------------------       ----------------
  pm..       .       .....

Metallica - King Nothing
Db-------------5---------5-------8---7
Ab--5-6-7--5h7----7--5h7---7----------
Eb--0-0-0----------------------6----5-
  pm.....                      ......

Iron Maiden - Fear Of The Dark
E|---------------------------------|-----------------------------------------
B|---------------------------------|---------------5-5---------5-------------
G|-7-----7-7-9-9-10-10-9-9-7-7-9-9-|-5-----5-5-7-7-----7-7-5-5---5-----------
D|---7-7---------------------------|---5-5-----------------------------------
A|---------------------------------|-----------------------------------------
E|---------------------------------|-----------------------------------------
(twice)

E|-----------------------------------|---------------------------------------
B|-----------------------------------|---------------------------------------
G|-----------------------------------|-----------------4-4---------4---------
D|-7-7-----7-7-9-9-10-10-9-9-7-7-9-9-|-5-5-----5-5-7-7-----7-7-5-5---5-------
A|-----7-7---------------------------|-----5-5-------------------------------
E|-----------------------------------|---------------------------------------

E|-----------------------------------|---------------------------------------
B|-----------------------------------|---------------------------------------
G|-----------------------------------|-----------------2-2---------2---------
D|-7-7-----7-7-9-9-10-10-9-9-7-7-9-9-|-3-3-----3-3-5-5-----5-5-3-3---3-------
A|-----7-7---------------------------|-----3-3-------------------------------
E|-----------------------------------|---------------------------------------

Iron Maiden - Wasting Love
E|------------^^-------------------------------------
B|------------10-10-----12-10------------------------
G|-9-11-12----------11--------12-11-12-11-9----------
D|---------10-------------------------------12-------
A|---------------------------------------------------
E|---------------------------------------------------

HammerFall - Glory To The Brave 

   D5                  A5             Bb5                 F5    C5
e:-13-13-13-13-12-10-|-12-----------|-------------------|------------|
B:-------------------|----13--------|-15-15-15-15-13-15-|-10---------|
G:-------------------|--------------|-------------------|------------|
D:-------------------|--------------|-------------------|------------|
A:-------------------|--------------|-------------------|------------|
E:-------------------|--------------|-------------------|------------|

   D5                  A5             Bb5
e:-13-13-13-13-12-10-|-8-10-12------|-10-10-10-10-12-13-|
B:-------------------|--------------|-------------------|
G:-------------------|--------------|-------------------|
D:-------------------|--------------|-------------------|
A:-------------------|--------------|-------------------|
E:-------------------|--------------|-------------------|

   C5   Bb5
e:-15---17^-15-13-12-12h13-12\10-|
B:-------------------------------|
G:-------------------------------|
D:-------------------------------|
A:-------------------------------|
E:-------------------------------|

HammerFall - Stone Cold 

    A(m)
        pm---|   pm---|    pm
e||----------------------------|--------------------------|
B||----------------------------|--------------------------|
G||-*--------------------------|--------------------------|
D||-*-7--------9--------10-----|-7------------------------|
A||---7--7--7--7--7--7--7--7---|-7------------------------|
E||----------------------------|--------------------------|

   F
     pm---|   pm---|    pm
e|--------------------------|--------------------------|
B|--------------------------|--------------------------|
G|--------------------------|--------------------------|
D|-7--------9--------10-----|-7------------------------|
A|-8--8--8--8--8--8--8--8---|-8------------------------|
E|--------------------------|--------------------------|

   G
     pm---|   pm---|    pm
e|--------------------------|--------------------------|
B|--------------------------|--------------------------|
G|--------------------------|--------------------------|
D|-12-------10-------9------|-12-------10-------9------|
A|-10-10-10-10-10-10-10-10--|-10-10-10-10-10-10-10-10--|
E|--------------------------|--------------------------|

   E
     pm---|   pm---|    pm
e|--------------------------|---------------------------||---------|
B|--------------------------|---------------------------||---------|
G|--------------------------|-------------------------*-||-2-------|
D|-6--------7--------9------|-10----9-----7-----6-----*-||-2-------|
A|-7--7--7--7--7--7--7--7---|-7--7--7--7--7--7--7--7----||-0-------|
E|--------------------------|---------------------------||---------|

Myślę, że tyle na początek wystarczy. Jeżeli potrafisz je zagrać poprawnie i w rytmie zgodnie z originałem, to znaczy, że musisz chwycić się czegoś trudniejszego. Najlepiej pobrać sobie tabulatury różnych kapel, na przykład Metallica, Iron Maiden, HammerFall i starać się to grać. Myślę, że to chyba na tyle w tym artykule. Zapraszam do kolejnego artykułu pt. Rock/metal cz.2, w którym prezentuję nieco trudniejsze i szybsze zagrywaki, ale są one bardzo widowiskowe dla ucha słuchacza.

Autor: Błażej Parma / http://vibrato.xo.pl

Artykuł udostępniony dzięki uprzejmości Błażeja Parma / http://vibrato.xo.pl

Dodaj komentarz

Przeczytaj poprzedni wpis:
Historia gitary.

Instrumenty podobne do dzisiejszych gitar są znane od ponad 5000 lat. Gitara być może wywodzi się z instrumentu cithara, używanego...

Zamknij