Gitara.org

Ćwiczenie dla gitarzystów

Ćwiczenie dla gitarzystów 1

e---------------------1234-4321---------------------
h-----------------1234---------4321-----------------
g-------------1234-----------------4321-------------
D---------1234-------------------------4321---------
A-----1234---------------------------------4321-----
E-1234-----------------------------------------4321-

v^V^V^V^V^V^v^V^V^V^V^V^ v^V^V^V^V^V^v^V^V^V^V^V^

Ćwiczenie dla gitarzystów 2

e-------------------------------
h-------------------------------
g----4-4------------------------
D---3---3--------3-3------------
A--2-----2------2---2------2-2--
E-1-------1----1-----1----1---1-

v^V^ v^V^ v^V ^V^ V^ V^

Ćwiczenie dla gitarzystów 3

Gramy je robiąc „Staccato” tzn. robiąc miedzy dźwiękami krótkie przerwy.

e-------------------------13------11------9------13-
h---------12------11--------------------------------
g-12-10-9----10-9----10-9----10-9----10-9---10-9----
D---------------------------------------------------
A---------------------------------------------------
E---------------------------------------------------

v ^ V ^ V ^ V ^ V ^ V ^ v ^ V ^ V ^ V

Uderzenie kostką z góry „V”
Uderzenie kostką z dołu „^”

Są to ćwiczenia rozwijające kostkowanie. Wykonujemy je robiąc duże ruchy dłonią zginając ręke w nadgarstku trzymając luźno kostke w palcach by nie była sztywna i troche ulegała oporowi uderzenia o strune.

/—
_ /
_/ = najlepiej trzymać palce w granicach tej lini którą zaznaczyłem na mojej „kostce” by jak najmniej wystawało pod struny, zapewnia to mniejszy opór przy kostkowaniu.

Uwaga!!!
Gdy boli Cię nadgarstek zrób przerwę!
Jeżeliprzesilisz może to się skończyć nie ciekawie dla ciebie i twojej kariery gitarowej, a nawet zakończyć!

Comments are closed.

Przeczytaj poprzedni wpis:
Jak czytać nuty. Poradnik dla gitarzystów

Wersja PDF poradnika dla gitarzystów: Jak czytać nuty Witam, proponuje wam poradnik do czytania nutek, nie odkryje tu przed wami...

Zamknij