Gitara.org

Ćwiczenia dla gitarzystów – interwały na gitarze, formy akordów i skala C-Dur

Zaczniemy od położenia interwałów na gitarze:
(podam tylko czyste i wielkie. Małe, zmniejszone i zwiększone można znaleźć poprzez alterowanie czystych i wielkich)

X – Pryma

X1 – pryma oktawę wyzej
O – interwał

O1 – inerwał oktawę wyżej
(X2,X3, X4 i odpowiednio O2,O3,O4)

SEKUNDA WIELKA
E |---|---|---|---|-X2|---|-O2|---|---|---|---|---|
O1|---|---|---|---|---|---|---|---|---|-X2|---|-O2|
G |---|-X1|---|-O1|---|---|---|---|---|---|---|---|
D |---|---|---|---|---|---|-X1|---|-O1|---|---|---|
X |---|-O-|---|---|---|---|---|---|---|---|---|---|
E |---|---|---|---|-X-|---|-O-|---|---|---|---|---|


TERCJA WIELKA
E |---|---|---|---|-X2|---|---|---|-O2|---|---|---|
B |---|-O1|---|---|---|---|---|---|---|-X2|---|---|
G |---|-X1|---|---|---|-O1|---|---|---|---|---|---|
D |---|---|---|---|---|---|-X1|---|---|---|-O1|---|
X |---|---|---|-O-|---|---|---|---|---|---|---|---|
E |---|---|---|---|-X-|---|---|---|-O-|---|---|---|


KWARTA CZYSTA
E |---|---|---|---|-X2|---|---|---|---|-O2|---|---|
B |---|---|-O1|---|---|---|---|---|---|-X2|---|---|
G |---|-X1|---|---|---|---|-O1|---|---|---|---|---|
O |---|---|---|---|---|---|-X1|---|---|---|---|-O1|
X |---|---|---|---|-O-|---|---|---|---|---|---|---|
E |---|---|---|---|-X-|---|---|---|---|-O-|---|---|


KWINTA CZYSTA
O1|---|---|---|---|-X2|---|---|---|---|---|---|-O2|
B |---|---|---|---|-O1|---|---|---|---|-X2|---|---|
G |---|-X1|---|---|---|---|---|---|-O1|---|---|---|
D |---|-O-|---|---|---|---|-X1|---|---|---|---|---|
X |---|---|---|---|---|---|-O-|---|---|---|---|---|
E |---|---|---|---|-X-|---|---|---|---|---|---|-O-|


SEKSTA WIELKA
E |---|-O1|---|---|-X2|---|---|---|---|---|---|---|
B |---|---|---|---|---|---|-O1|---|---|-X2|---|---|
G |---|-X1|---|---|---|---|---|---|---|---|-O1|---|
D |---|---|---|-O-|---|---|-X1|---|---|---|---|---|
X |---|---|---|---|---|---|---|---|-O-|---|---|---|
E |---|---|---|---|-X-|---|---|---|---|---|---|---|


SEPTYMA WIELKA
E |---|---|---|-X1|-X2|---|---|---|---|---|---|---|
B |---|---|---|---|---|---|---|---|-X1|-X2|---|---|
G |-O-|-X1|---|---|---|---|---|---|---|---|---|---|
D |---|---|---|---|---|-O-|-X1|---|---|---|---|---|
X |---|---|---|---|---|---|---|---|---|---|---|-O-|
E |---|---|---|---|-X-|---|---|---|---|---|---|---|

Czas na coś luźniejszego…

Podstawowe otwarte formy akordow!

A-dur                  A-moll
E|---|---|---|---|---| E|---|---|---|---|---|
B|---|-O-|---|---|---| B|-O-|---|---|---|---|
G|---|-O-|---|---|---| G|---|-O-|---|---|---|
D|---|-O-|---|---|---| D|---|-O-|---|---|---|
A|---|---|---|---|---| A|---|---|---|---|---|
E|---|---|---|---|---| E|---|---|---|---|---|


E-dur                  E-moll
E|---|---|---|---|---| E|---|---|---|---|---|
B|---|---|---|---|---| B|---|---|---|---|---|
G|-O-|---|---|---|---| G|---|---|---|---|---|
D|---|-O-|---|---|---| D|---|-O-|---|---|---|
A|---|-O-|---|---|---| A|---|-O-|---|---|---|
E|---|---|---|---|---| E|---|---|---|---|---|


G-dur                  C-dur
E|---|---|-O-|---|---| E|---|---|---|---|---|
B|---|---|---|---|---| B|-O-|---|---|---|---|
G|---|---|---|---|---| G|---|---|---|---|---|
D|---|---|---|---|---| D|---|-O-|---|---|---|
A|---|-O-|---|---|---| A|---|---|-O-|---|---|
E|---|---|-O-|---|---| E|---|---|---|---|---|


D-dur                  D-moll
E|---|-O-|---|---|---| E|-O-|---|---|---|---|
B|---|---|-O-|---|---| B|---|---|-O-|---|---|
G|---|-O-|---|---|---| G|---|-O-|---|---|---|
D|---|---|---|---|---| D|---|---|---|---|---|
A|---|---|---|---|---| A|---|---|---|---|---|
E|---|---|---|---|---| E|---|---|---|---|---|

Skala C-dur w różnych pozycjach w obrębie jednej oktawy
(tabulatura)

E|------------------------------------------------------
B|------------------------------------------------------
G|---------------------------------4-5------------------
D|-------------7-9-10----------5-7----------------------
A|------7-8-10-----------5-7-8--------------------------
E|-8-10----------------8--------------------------------


E|------------------------------------------------------
B|-------------0-1--------------------------------------
G|---------0-2----------------2-4-5---------------------
D|---0-2-3--------------2-3-5---------------------------
A|-3----------------3-5---------------------------------
E|------------------------------------------------------


E|----------------------------------------7-8-----------
B|---------------10-12-13------------8-10---------------
G|-------9-10-12--------------7-9-10--------------------
D|-10-12-------------------10---------------------------
A|------------------------------------------------------
E|------------------------------------------------------


E|-----------5-7-8--------------------------------------
B|-----5-6-8--------------------------------------------
G|-5-7--------------------------------------------------
D|------------------------------------------------------
A|------------------------------------------------------
E|------------------------------------------------------

Jak widzimy jest aż siedem sposobów na zagranie skali C-dur w pełnej oktawie.

  • jest to zróżnicowany materiał do ćwiczeń
  • trzeba ćwiczyć łączenie pozycji
  • trzeba ćwiczyć wszystkie pozycje w różnych tonacjach

Na „zadanie”:

  • przećwiczyć trochę interwałów (wszystkiego się nie da za jednym razem)
  • ograć pozycje skali durowej
  • wymyślić kilku dźwiękową melodię na podstawie skali durowej i zagrać we wszystkich pozycjach

Autor: Marek „WilQ” K. (http://chomikuj.pl/highwolf)

Comments are closed.

Przeczytaj poprzedni wpis:
Akordy Shell chords

Shell chords są to akordy złożone z dźwięków stanowiących podstawę brzmieniową. Jak wiemy najważniejsze dla akordu są tercja i septyma,...

Zamknij